  0
SECTION
  2
HEADER
  9
$ACADVER
  1
AC1009
  9
$INSBASE
 10
0.0
 20
0.0
 30
0.0
  9
$EXTMIN
 10
0.0
 20
-86.13559670918061
 30
0.0
  9
$EXTMAX
 10
324.9256441780019
 20
251.7904446022392
 30
0.0
  9
$LIMMIN
 10
0.0
 20
0.0
  9
$LIMMAX
 10
210.0
 20
297.0
  9
$ORTHOMODE
 70
     1
  9
$REGENMODE
 70
     1
  9
$FILLMODE
 70
     1
  9
$QTEXTMODE
 70
     0
  9
$MIRRTEXT
 70
     0
  9
$DRAGMODE
 70
     2
  9
$LTSCALE
 40
1.0
  9
$OSMODE
 70
    32
  9
$ATTMODE
 70
     2
  9
$TEXTSIZE
 40
3.5
  9
$TRACEWID
 40
0.1
  9
$TEXTSTYLE
  7
STANDARD
  9
$CLAYER
  8
0
  9
$CELTYPE
  6
BYLAYER
  9
$CECOLOR
 62
   256
  9
$DIMSCALE
 40
1.0
  9
$DIMASZ
 40
2.5
  9
$DIMEXO
 40
1.0
  9
$DIMDLI
 40
8.0
  9
$DIMRND
 40
0.0
  9
$DIMDLE
 40
0.0
  9
$DIMEXE
 40
2.0
  9
$DIMTP
 40
0.1
  9
$DIMTM
 40
0.1
  9
$DIMTXT
 40
3.5
  9
$DIMCEN
 40
2.0
  9
$DIMTSZ
 40
0.0
  9
$DIMTOL
 70
     0
  9
$DIMLIM
 70
     0
  9
$DIMTIH
 70
     0
  9
$DIMTOH
 70
     0
  9
$DIMSE1
 70
     0
  9
$DIMSE2
 70
     0
  9
$DIMTAD
 70
     1
  9
$DIMZIN
 70
     8
  9
$DIMBLK
  1

  9
$DIMASO
 70
     1
  9
$DIMSHO
 70
     1
  9
$DIMPOST
  1

  9
$DIMAPOST
  1

  9
$DIMALT
 70
     0
  9
$DIMALTD
 70
     2
  9
$DIMALTF
 40
25.39999999999999
  9
$DIMLFAC
 40
1.0
  9
$DIMTOFL
 70
     1
  9
$DIMTVP
 40
0.0
  9
$DIMTIX
 70
     0
  9
$DIMSOXD
 70
     0
  9
$DIMSAH
 70
     0
  9
$DIMBLK1
  1

  9
$DIMBLK2
  1

  9
$DIMSTYLE
  2
GEN-ISO
  9
$DIMCLRD
 70
   256
  9
$DIMCLRE
 70
   256
  9
$DIMCLRT
 70
     2
  9
$DIMTFAC
 40
0.71
  9
$DIMGAP
 40
1.5
  9
$LUNITS
 70
     2
  9
$LUPREC
 70
     3
  9
$SKETCHINC
 40
0.1
  9
$FILLETRAD
 40
2.5
  9
$AUNITS
 70
     0
  9
$AUPREC
 70
     1
  9
$MENU
  1

  9
$ELEVATION
 40
0.0
  9
$PELEVATION
 40
0.0
  9
$THICKNESS
 40
0.0
  9
$LIMCHECK
 70
     0
  9
$BLIPMODE
 70
     0
  9
$CHAMFERA
 40
2.5
  9
$CHAMFERB
 40
2.5
  9
$SKPOLY
 70
     1
  9
$TDCREATE
 40
2449604.398771759
  9
$TDUPDATE
 40
2449604.427200115
  9
$TDINDWG
 40
0.0078244213
  9
$TDUSRTIMER
 40
0.0078244213
  9
$USRTIMER
 70
     1
  9
$ANGBASE
 50
0.0
  9
$ANGDIR
 70
     0
  9
$PDMODE
 70
     3
  9
$PDSIZE
 40
0.0
  9
$PLINEWID
 40
0.0
  9
$COORDS
 70
     2
  9
$SPLFRAME
 70
     0
  9
$SPLINETYPE
 70
     6
  9
$SPLINESEGS
 70
     8
  9
$ATTDIA
 70
     1
  9
$ATTREQ
 70
     1
  9
$HANDLING
 70
     1
  9
$HANDSEED
  5
11A2
  9
$SURFTAB1
 70
     6
  9
$SURFTAB2
 70
     6
  9
$SURFTYPE
 70
     6
  9
$SURFU
 70
     6
  9
$SURFV
 70
     6
  9
$UCSNAME
  2
AIT$ITEM
  9
$UCSORG
 10
0.0
 20
0.0
 30
0.0
  9
$UCSXDIR
 10
1.0
 20
0.0
 30
0.0
  9
$UCSYDIR
 10
0.0
 20
1.0
 30
0.0
  9
$PUCSNAME
  2

  9
$PUCSORG
 10
0.0
 20
0.0
 30
0.0
  9
$PUCSXDIR
 10
1.0
 20
0.0
 30
0.0
  9
$PUCSYDIR
 10
0.0
 20
1.0
 30
0.0
  9
$USERI1
 70
     0
  9
$USERI2
 70
     3
  9
$USERI3
 70
    15
  9
$USERI4
 70
     0
  9
$USERI5
 70
     0
  9
$USERR1
 40
1.0
  9
$USERR2
 40
1.0
  9
$USERR3
 40
0.0
  9
$USERR4
 40
1.0
  9
$USERR5
 40
0.0
  9
$WORLDVIEW
 70
     5
  9
$SHADEDGE
 70
     3
  9
$SHADEDIF
 70
    70
  9
$TILEMODE
 70
     1
  9
$MAXACTVP
 70
     4
  9
$PINSBASE
 10
0.0
 20
0.0
 30
0.0
  9
$PLIMCHECK
 70
     0
  9
$PEXTMIN
 10
1.000000000000000E+20
 20
1.000000000000000E+20
 30
1.000000000000000E+20
  9
$PEXTMAX
 10
-1.000000000000000E+20
 20
-1.000000000000000E+20
 30
-1.000000000000000E+20
  9
$PLIMMIN
 10
0.0
 20
0.0
  9
$PLIMMAX
 10
420.0
 20
297.0
  9
$UNITMODE
 70
     0
  9
$VISRETAIN
 70
     0
  9
$PLINEGEN
 70
     0
  9
$PSLTSCALE
 70
     0
  9
$TREEDEPTH
 70
  3020
  9
$DWGCODEPAGE
  3
undefined
  0
ENDSEC
  0
SECTION
  2
TABLES
  0
TABLE
  2
VPORT
 70
     6
  0
VPORT
  2
*ACTIVE
 70
     0
 10
0.0
 20
0.0
 11
1.0
 21
1.0
 12
333.2167422146297
 22
208.5303947012806
 13
0.0
 23
0.0
 14
7.0
 24
7.0
 15
10.0
 25
10.0
 16
0.0
 26
0.0
 36
1.0
 17
0.0
 27
0.0
 37
0.0
 40
173.0401996038343
 41
1.275675675675675
 42
50.0
 43
0.0
 44
0.0
 50
0.0
 51
0.0
 71
     0
 72
   100
 73
     1
 74
     0
 75
     0
 76
     0
 77
     0
 78
     0
  0
VPORT
  2
G-AF4R
 70
     0
 10
0.0
 20
0.0
 11
0.75
 21
1.0
 12
210.0
 22
185.4098670068215
 13
0.0
 23
0.0
 14
1.0
 24
1.0
 15
10.0
 25
10.0
 16
0.0
 26
0.0
 36
1.0
 17
0.0
 27
0.0
 37
0.0
 40
370.819734013643
 41
1.132625805682033
 42
50.0
 43
0.0
 44
0.0
 50
0.0
 51
0.0
 71
     0
 72
   100
 73
     1
 74
     1
 75
     1
 76
     1
 77
     0
 78
     0
  0
VPORT
  2
G-AF4R
 70
     0
 10
0.75
 20
0.0
 11
1.0
 21
0.3333333333333333
 12
210.0
 22
182.302369903542
 13
0.0
 23
0.0
 14
1.0
 24
1.0
 15
10.0
 25
10.0
 16
0.0
 26
0.0
 36
1.0
 17
0.0
 27
0.0
 37
0.0
 40
364.6047398070843
 41
1.151932364407072
 42
50.0
 43
0.0
 44
0.0
 50
0.0
 51
0.0
 71
     0
 72
   100
 73
     1
 74
     1
 75
     1
 76
     1
 77
     0
 78
     0
  0
VPORT
  2
G-AF4R
 70
     0
 10
0.75
 20
0.3333333333333333
 11
1.0
 21
0.6666666666666667
 12
210.0
 22
182.302369903542
 13
0.0
 23
0.0
 14
1.0
 24
1.0
 15
10.0
 25
10.0
 16
0.0
 26
0.0
 36
1.0
 17
0.0
 27
0.0
 37
0.0
 40
364.6047398070843
 41
1.151932364407072
 42
50.0
 43
0.0
 44
0.0
 50
0.0
 51
0.0
 71
     0
 72
   100
 73
     1
 74
     1
 75
     1
 76
     1
 77
     0
 78
     0
  0
VPORT
  2
G-AF4R
 70
     0
 10
0.75
 20
0.6666666666666667
 11
1.0
 21
1.0
 12
209.9999999999999
 22
184.2626104401393
 13
0.0
 23
0.0
 14
1.0
 24
1.0
 15
10.0
 25
10.0
 16
0.0
 26
0.0
 36
1.0
 17
0.0
 27
0.0
 37
0.0
 40
368.5252208802787
 41
1.139677764785719
 42
50.0
 43
0.0
 44
0.0
 50
0.0
 51
0.0
 71
     0
 72
   100
 73
     1
 74
     1
 75
     1
 76
     1
 77
     0
 78
     0
  0
ENDTAB
  0
TABLE
  2
LTYPE
 70
    15
  0
LTYPE
  2
CONTINUOUS
 70
    64
  3
Solid line
 72
    65
 73
     0
 40
0.0
  0
LTYPE
  2
GEN4A
 70
    64
  3
_____ . . _____ . . _____ . . ____ .. ____
 72
    65
 73
     6
 40
17.5
 49
10.0
 49
-2.5
 49
0.0
 49
-2.5
 49
0.0
 49
-2.5
  0
LTYPE
  2
GEN7
 70
    64
  3
____ . ____ . ____ . ____ . ____ . ____ . ____
 72
    65
 73
     4
 40
15.0
 49
10.0
 49
-2.5
 49
0.0
 49
-2.5
  0
LTYPE
  2
GEN7A
 70
    64
  3
__ . __ . __
 72
    65
 73
     4
 40
7.5
 49
5.0
 49
-1.25
 49
0.0
 49
-1.25
  0
LTYPE
  2
GEN3A
 70
    64
  3
 - - - - -
 72
    65
 73
     2
 40
3.1
 49
2.5
 49
-0.6
  0
LTYPE
  2
GEN3
 70
    64
  3
-- -- -- -- -- -- -- -- -- -- -- -- -- -- --
 72
    65
 73
     2
 40
6.25
 49
5.0
 49
-1.25
  0
LTYPE
  2
GEN
 70
    64
  3
----------------------
 72
    65
 73
     2
 40
10000000000.0
 49
0.0
 49
10000000000.0
  0
LTYPE
  2
ITEM-STRICH
 70
     0
  3
 - - - - -
 72
    65
 73
     2
 40
1.5
 49
1.2
 49
-0.3
  0
LTYPE
  2
ITEM-STRICHGR
 70
     0
  3
 -- -- -- -- --
 72
    65
 73
     2
 40
6.25
 49
5.0
 49
-1.25
  0
LTYPE
  2
ITEM-STRICHPUNKT
 70
     0
  3
__ . __ . __
 72
    65
 73
     4
 40
3.599999999999999
 49
2.399999999999999
 49
-0.6
 49
0.0
 49
-0.6
  0
LTYPE
  2
ITEM-STRICHPGR
 70
     0
  3
____ . ____ . ____ . ____ . ____ . ____ . ____
 72
    65
 73
     4
 40
15.0
 49
10.0
 49
-2.5
 49
0.0
 49
-2.5
  0
LTYPE
  2
AIT$STRICH
 70
    64
  3
 - - - - -
 72
    65
 73
     2
 40
1.5
 49
1.2
 49
-0.3
  0
LTYPE
  2
AIT$STRICHGR
 70
    64
  3
 -- -- -- -- --
 72
    65
 73
     2
 40
6.25
 49
5.0
 49
-1.25
  0
LTYPE
  2
AIT$STRICHPUNKT
 70
    64
  3
__ . __ . __
 72
    65
 73
     4
 40
3.599999999999999
 49
2.399999999999999
 49
-0.6
 49
0.0
 49
-0.6
  0
LTYPE
  2
AIT$STRICHPGR
 70
    64
  3
____ . ____ . ____ . ____ . ____ . ____ . ____
 72
    65
 73
     4
 40
15.0
 49
10.0
 49
-2.5
 49
0.0
 49
-2.5
  0
ENDTAB
  0
TABLE
  2
LAYER
 70
    49
  0
LAYER
  2
0
 70
    64
 62
     7
  6
CONTINUOUS
  0
LAYER
  2
ITEM_25
 70
    64
 62
     3
  6
CONTINUOUS
  0
LAYER
  2
ITEM_HILFE
 70
    64
 62
     3
  6
CONTINUOUS
  0
LAYER
  2
ITEM_50
 70
    64
 62
     7
  6
CONTINUOUS
  0
LAYER
  2
4AN
 70
     0
 62
     3
  6
GEN4A
  0
LAYER
  2
2AN
 70
     0
 62
     7
  6
GEN7
  0
LAYER
  2
7AN
 70
     0
 62
     4
  6
GEN7A
  0
LAYER
  2
3AN
 70
     0
 62
     6
  6
GEN3A
  0
LAYER
  2
8N
 70
     0
 62
     1
  6
CONTINUOUS
  0
LAYER
  2
7N
 70
     0
 62
     4
  6
GEN7
  0
LAYER
  2
6N
 70
     0
 62
     2
  6
CONTINUOUS
  0
LAYER
  2
5N
 70
     0
 62
     3
  6
CONTINUOUS
  0
LAYER
  2
4N
 70
     0
 62
     3
  6
CONTINUOUS
  0
LAYER
  2
3N
 70
     0
 62
     6
  6
GEN3
  0
LAYER
  2
2N
 70
     0
 62
     5
  6
CONTINUOUS
  0
LAYER
  2
1N
 70
     0
 62
     9
  6
CONTINUOUS
  0
LAYER
  2
0N
 70
     0
 62
     7
  6
CONTINUOUS
  0
LAYER
  2
GENHATCH
 70
     0
 62
     8
  6
CONTINUOUS
  0
LAYER
  2
4A
 70
     0
 62
     3
  6
GEN4A
  0
LAYER
  2
2A
 70
     0
 62
     7
  6
GEN7
  0
LAYER
  2
7A
 70
     0
 62
     4
  6
GEN7A
  0
LAYER
  2
3A
 70
     0
 62
     6
  6
GEN3A
  0
LAYER
  2
8
 70
     0
 62
     1
  6
CONTINUOUS
  0
LAYER
  2
7
 70
     0
 62
     4
  6
GEN7
  0
LAYER
  2
6
 70
     0
 62
     2
  6
CONTINUOUS
  0
LAYER
  2
5
 70
     0
 62
     3
  6
CONTINUOUS
  0
LAYER
  2
4
 70
     0
 62
     3
  6
CONTINUOUS
  0
LAYER
  2
3
 70
     0
 62
     6
  6
GEN3
  0
LAYER
  2
2
 70
     0
 62
     5
  6
CONTINUOUS
  0
LAYER
  2
1
 70
     0
 62
     9
  6
CONTINUOUS
  0
LAYER
  2
RAHM2
 70
     0
 62
     3
  6
GEN
  0
LAYER
  2
RAHM3
 70
     0
 62
     7
  6
GEN
  0
LAYER
  2
RAHM5
 70
     0
 62
     7
  6
GEN
  0
LAYER
  2
KLIN
 70
     0
 62
     9
  6
GEN
  0
LAYER
  2
INFO
 70
     0
 62
     4
  6
GEN
  0
LAYER
  2
DEFPOINTS
 70
     0
 62
    -7
  6
GEN
  0
LAYER
  2
AIT$50
 70
     0
 62
     7
  6
CONTINUOUS
  0
LAYER
  2
AIT$35
 70
     0
 62
     2
  6
CONTINUOUS
  0
LAYER
  2
AIT$25
 70
     0
 62
     3
  6
CONTINUOUS
  0
LAYER
  2
AIT$HILFE
 70
    64
 62
     3
  6
CONTINUOUS
  0
LAYER
  2
AIT$INFO
 70
    64
 62
     4
  6
CONTINUOUS
  0
LAYER
  2
AIT$STP
 70
     0
 62
     4
  6
AIT$STRICHPUNKT
  0
LAYER
  2
AIT$STPG
 70
     0
 62
     4
  6
AIT$STRICHPGR
  0
LAYER
  2
AIT$GSTR
 70
     0
 62
     6
  6
AIT$STRICH
  0
LAYER
  2
AIT$GSTRG
 70
     0
 62
     6
  6
AIT$STRICHGR
  0
LAYER
  2
AIT$3D
 70
     0
 62
     7
  6
CONTINUOUS
  0
LAYER
  2
AIT$3D_HLF
 70
     0
 62
     3
  6
CONTINUOUS
  0
LAYER
  2
AIT$3D_DET
 70
     1
 62
     2
  6
CONTINUOUS
  0
LAYER
  2
AIT$3D_BEM
 70
     0
 62
     2
  6
CONTINUOUS
  0
ENDTAB
  0
TABLE
  2
STYLE
 70
     9
  0
STYLE
  2
STANDARD
 70
     0
 40
0.0
 41
1.0
 50
0.0
 71
     0
 42
3.5
  3
GENISO
  4

  0
STYLE
  2
GENPRESET
 70
    64
 40
0.0
 41
1.0
 50
0.0
 71
     0
 42
3.5
  3
GENPRESE
  4

  0
STYLE
  2
1
 70
     0
 40
0.0
 41
1.0
 50
0.0
 71
     0
 42
3.5
  3
TXT8
  4

  0
STYLE
  2
2
 70
     0
 40
0.0
 41
1.0
 50
0.0
 71
     0
 42
3.5
  3
MONOTXT8
  4

  0
STYLE
  2
3
 70
     0
 40
0.0
 41
0.8
 50
0.0
 71
     0
 42
3.5
  3
SIMPLEX8
  4

  0
STYLE
  2
4
 70
     0
 40
0.0
 41
1.0
 50
0.0
 71
     0
 42
3.5
  3
ITALIC8
  4

  0
STYLE
  2
AIT$BEM-L
 70
     0
 40
0.0
 41
1.0
 50
29.99999999999999
 71
     0
 42
3.5
  3
iso8
  4

  0
STYLE
  2
AIT$BEM-R
 70
     0
 40
0.0
 41
1.0
 50
330.0
 71
     0
 42
3.5
  3
iso8
  4

  0
STYLE
  2
AIT$TSTIL
 70
    64
 40
0.0
 41
0.8
 50
0.0
 71
     0
 42
3.5
  3
iso8
  4

  0
ENDTAB
  0
TABLE
  2
VIEW
 70
     5
  0
VIEW
  2
1
 70
     0
 40
146.0
 10
113.5
 20
206.0
 41
207.0
 11
0.0
 21
0.0
 31
1.0
 12
0.0
 22
0.0
 32
0.0
 42
50.0
 43
0.0
 44
0.0
 50
0.0
 71
     0
  0
VIEW
  2
2
 70
     0
 40
128.0
 10
309.5
 20
218.0
 41
193.0
 11
0.0
 21
0.0
 31
1.0
 12
0.0
 22
0.0
 32
0.0
 42
50.0
 43
0.0
 44
0.0
 50
0.0
 71
     0
  0
VIEW
  2
3
 70
     0
 40
154.0
 10
127.0
 20
89.0
 41
220.0
 11
0.0
 21
0.0
 31
1.0
 12
0.0
 22
0.0
 32
0.0
 42
50.0
 43
0.0
 44
0.0
 50
0.0
 71
     0
  0
VIEW
  2
4
 70
     0
 40
67.0
 10
176.5
 20
43.5
 41
107.0
 11
0.0
 21
0.0
 31
1.0
 12
0.0
 22
0.0
 32
0.0
 42
50.0
 43
0.0
 44
0.0
 50
0.0
 71
     0
  0
VIEW
  2
5
 70
     0
 40
123.0
 10
207.0
 20
149.5
 41
184.0
 11
0.0
 21
0.0
 31
1.0
 12
0.0
 22
0.0
 32
0.0
 42
50.0
 43
0.0
 44
0.0
 50
0.0
 71
     0
  0
ENDTAB
  0
TABLE
  2
UCS
 70
     1
  0
UCS
  2
AIT$ITEM
 70
     0
 10
0.0
 20
0.0
 30
0.0
 11
1.0
 21
0.0
 31
0.0
 12
0.0
 22
1.0
 32
0.0
  0
ENDTAB
  0
TABLE
  2
APPID
 70
     2
  0
APPID
  2
ACAD
 70
    64
  0
ENDTAB
  0
TABLE
  2
DIMSTYLE
 70
    12
  0
DIMSTYLE
  2
GEN-ISO
 70
     0
  3

  4

  5

  6

  7

 40
1.0
 41
2.5
 42
1.0
 43
8.0
 44
2.0
 45
0.0
 46
0.0
 47
0.1
 48
0.1
140
3.5
141
2.0
142
0.0
143
25.39999999999999
144
1.0
145
0.0
146
0.71
147
1.5
 71
     0
 72
     0
 73
     0
 74
     0
 75
     0
 76
     0
 77
     1
 78
     8
170
     0
171
     2
172
     1
173
     0
174
     0
175
     0
176
   256
177
   256
178
     2
  0
DIMSTYLE
  2
GEN-ISO-AXE-H
 70
     0
  3

  4

  5

  6

  7

 40
1.0
 41
2.5
 42
1.0
 43
8.0
 44
2.0
 45
0.0
 46
0.0
 47
0.1
 48
0.1
140
3.5
141
2.0
142
0.0
143
25.39999999999999
144
2.0
145
0.0
146
0.71
147
1.5
 71
     0
 72
     0
 73
     0
 74
     0
 75
     1
 76
     1
 77
     1
 78
     8
170
     0
171
     2
172
     1
173
     1
174
     0
175
     0
176
   256
177
   256
178
     2
  0
DIMSTYLE
  2
GEN-ISO-AXE-F
 70
     0
  3

  4

  5

  6

  7

 40
1.0
 41
2.5
 42
1.0
 43
8.0
 44
2.0
 45
0.0
 46
0.0
 47
0.1
 48
0.1
140
3.5
141
2.0
142
0.0
143
25.39999999999999
144
1.0
145
0.0
146
0.71
147
1.5
 71
     0
 72
     0
 73
     0
 74
     0
 75
     1
 76
     1
 77
     1
 78
     8
170
     0
171
     2
172
     1
173
     0
174
     0
175
     0
176
   256
177
   256
178
     2
  0
DIMSTYLE
  2
GEN-ISO-POS
 70
     0
  3

  4

  5

  6

  7

 40
1.0
 41
2.5
 42
1.0
 43
8.0
 44
2.0
 45
0.0
 46
0.0
 47
0.1
 48
0.1
140
5.0
141
2.0
142
0.0
143
25.39999999999999
144
1.0
145
0.0
146
0.71
147
1.5
 71
     0
 72
     0
 73
     0
 74
     0
 75
     0
 76
     0
 77
     1
 78
     8
170
     0
171
     2
172
     1
173
     0
174
     0
175
     0
176
   256
177
   256
178
     2
  0
DIMSTYLE
  2
GEN-ISO-CIR
 70
     0
  3

  4

  5

  6

  7

 40
1.0
 41
2.5
 42
1.0
 43
8.0
 44
2.0
 45
0.0
 46
0.0
 47
0.1
 48
0.1
140
3.5
141
2.0
142
0.0
143
25.39999999999999
144
1.0
145
0.0
146
0.71
147
1.5
 71
     0
 72
     0
 73
     0
 74
     0
 75
     0
 76
     0
 77
     1
 78
     8
170
     0
171
     2
172
     1
173
     0
174
     1
175
     0
176
   256
177
   256
178
     2
  0
DIMSTYLE
  2
GEN-ANSI
 70
     0
  3

  4

  5

  6

  7

 40
1.0
 41
0.1
 42
0.05
 43
0.3
 44
0.1
 45
0.0
 46
0.0
 47
0.1
 48
0.1
140
0.15
141
0.1
142
0.0
143
25.39999999999999
144
1.0
145
0.0
146
0.8
147
0.1
 71
     0
 72
     0
 73
     0
 74
     0
 75
     0
 76
     0
 77
     1
 78
     8
170
     0
171
     2
172
     1
173
     0
174
     0
175
     0
176
   256
177
   256
178
     2
  0
DIMSTYLE
  2
GEN-ANSI-POS
 70
     0
  3

  4

  5

  6

  7

 40
1.0
 41
0.1
 42
0.05
 43
0.4
 44
0.1
 45
0.0
 46
0.0
 47
0.1
 48
0.1
140
0.2
141
0.1
142
0.0
143
25.39999999999999
144
1.0
145
0.0
146
0.8
147
0.1
 71
     0
 72
     0
 73
     0
 74
     0
 75
     0
 76
     0
 77
     1
 78
     8
170
     0
171
     2
172
     1
173
     0
174
     0
175
     0
176
   256
177
   256
178
     2
  0
DIMSTYLE
  2
GEN-ANSI-CIR
 70
     0
  3

  4

  5

  6

  7

 40
1.0
 41
0.1
 42
0.05
 43
0.4
 44
0.1
 45
0.0
 46
0.0
 47
0.1
 48
0.1
140
0.15
141
0.1
142
0.0
143
25.39999999999999
144
1.0
145
0.0
146
0.8
147
0.1
 71
     0
 72
     0
 73
     0
 74
     0
 75
     0
 76
     0
 77
     0
 78
     8
170
     0
171
     2
172
     1
173
     0
174
     1
175
     0
176
   256
177
   256
178
     2
  0
DIMSTYLE
  2
GEN-ANSI-AXE-F
 70
     0
  3

  4

  5

  6

  7

 40
1.0
 41
0.1
 42
0.05
 43
0.3
 44
0.1
 45
0.0
 46
0.0
 47
0.1
 48
0.1
140
0.15
141
0.1
142
0.0
143
25.39999999999999
144
1.0
145
0.0
146
1.0
147
0.0
 71
     0
 72
     0
 73
     0
 74
     0
 75
     1
 76
     1
 77
     1
 78
     8
170
     0
171
     2
172
     1
173
     0
174
     0
175
     0
176
   256
177
   256
178
     2
  0
DIMSTYLE
  2
GEN-ANSI-AXE-H
 70
     0
  3

  4

  5

  6
GEN-AXE-H
  7

 40
1.0
 41
0.1
 42
0.05
 43
0.4
 44
0.1
 45
0.0
 46
0.0
 47
0.1
 48
0.1
140
0.15
141
0.1
142
0.0
143
25.39999999999999
144
2.0
145
0.0
146
1.0
147
0.0
 71
     0
 72
     0
 73
     0
 74
     0
 75
     1
 76
     1
 77
     0
 78
     8
170
     0
171
     2
172
     1
173
     1
174
     0
175
     0
176
   256
177
   256
178
     2
  0
DIMSTYLE
  2
GEN-ISO-ORD
 70
     0
  3

  4

  5

  6

  7

 40
1.0
 41
2.5
 42
1.0
 43
8.0
 44
2.0
 45
0.0
 46
0.0
 47
0.1
 48
0.1
140
3.5
141
2.0
142
0.0
143
25.39999999999999
144
1.0
145
0.0
146
0.71
147
1.5
 71
     0
 72
     0
 73
     0
 74
     0
 75
     0
 76
     0
 77
     0
 78
     8
170
     0
171
     2
172
     0
173
     0
174
     0
175
     0
176
   256
177
   256
178
     2
  0
DIMSTYLE
  2
GEN-ANSI-ORD
 70
     0
  3

  4

  5

  6

  7

 40
1.0
 41
0.1
 42
0.05
 43
0.4
 44
0.1
 45
0.0
 46
0.0
 47
0.1
 48
0.1
140
0.15
141
0.1
142
0.0
143
25.39999999999999
144
1.0
145
0.0
146
1.0
147
0.1
 71
     0
 72
     0
 73
     0
 74
     0
 75
     0
 76
     0
 77
     0
 78
     8
170
     0
171
     2
172
     0
173
     0
174
     0
175
     0
176
   256
177
   256
178
     2
  0
ENDTAB
  0
ENDSEC
  0
SECTION
  2
BLOCKS
  0
BLOCK
  8
0
  5
F3
  2
GENPRESE
 70
    66
 10
0.0
 20
0.0
 30
0.0
  3
GENPRESE
  0
ATTDEF
  8
0
  5
F4
 10
0.0
 20
0.0
 30
0.0
 40
3.5
  1
A3
  3
PAPER FORMAT
  2
GEN-KO2
 70
     0
  7
GENPRESET
  0
ATTDEF
  8
0
  5
F5
 10
0.0
 20
-5.0
 30
0.0
 40
3.5
  1
item
  3
SCHRIFTKOPF
  2
GEN-KO3
 70
     0
  7
GENPRESET
  0
ATTDEF
  8
0
  5
F6
 10
0.0
 20
-10.0
 30
0.0
 40
3.5
  1
15
  3
ZEITPERIODE SICHERN
  2
GENSI
 70
     0
  7
GENPRESET
  0
ATTDEF
  8
0
  5
F7
 10
0.0
 20
-15.0
 30
0.0
 40
3.5
  1

  3
NAME ZUM SICHERN
  2
GENSD
 70
     0
  7
GENPRESET
  0
ATTDEF
  8
0
  5
F8
 10
0.0679278917532429
 20
-19.93786241836124
 30
0.0
 40
3.5
  1
0
  3
INFOPKT=0/TEXT=1/NO=2
  2
GENIF
 70
     0
  7
GENPRESET
  0
ATTDEF
  8
0
  5
F9
 10
0.0339639458766215
 20
-24.96893120918062
 30
0.0
 40
3.5
  1
2
  3
HORIZ=1/JUSTI=2/KREIS=3
  2
GENPOSVAR
 70
     0
  7
GENPRESET
  0
ATTDEF
  8
0
  5
FA
 10
0.0339639458766215
 20
-29.96893120918062
 30
0.0
 40
3.5
  1
0
  3
POSILIN.KREIS=0/PFEIL=1
  2
GENPOSBLK
 70
     0
  7
GENPRESET
  0
ATTDEF
  8
0
  5
FB
 10
0.0339639458766215
 20
-34.96893120918062
 30
0.0
 40
3.5
  1
1
  3
INKREMENT POSINR.
  2
GENPOSINC
 70
     0
  7
GENPRESET
  0
ATTDEF
  8
0
  5
FC
 10
0.0339639458766215
 20
-39.96893120918062
 30
0.0
 40
3.5
  1
GEN-POS
  3
MASKE POSITIONLISTE
  2
GENPARPOS
 70
     0
  7
GENPRESET
  0
ATTDEF
  8
0
  5
FD
 10
0.0339639458766215
 20
-44.96893120918062
 30
0.0
 40
3.5
  1
GEN-SUM
  3
MASKE SUMMENLISTE
  2
GENPARSUM
 70
     0
  7
GENPRESET
  0
ATTDEF
  8
0
  5
FE
 10
0.0339639458766215
 20
-49.96893120918062
 30
0.0
 40
3.5
  1
CANONII
  3
STANDARDDRUCKER
  2
GENPARDRU
 70
     0
  7
GENPRESET
  0
ATTDEF
  8
0
  5
FF
 10
0.0339639458766215
 20
-54.96893120918062
 30
0.0
 40
3.5
  1

  3
LAYERGRUPPE NORMTEILE
  2
GENSTDLG
 70
     0
  7
GENPRESET
  0
ATTDEF
  8
0
  5
100
 10
0.0339639458766215
 20
-59.96893120918062
 30
0.0
 40
3.5
  1
13
  3
FARBE DIALOG-FELDER
  2
GENCOLBK
 70
     0
  7
GENPRESET
  0
ATTDEF
  8
0
  5
101
 10
0.0339639458766215
 20
-64.96893120918062
 30
0.0
 40
3.5
  1
4
  3
FARBE DIALOG-šBERSCHRIFT
  2
GENCOLTI
 70
     0
  7
GENPRESET
  0
ATTDEF
  8
0
  5
102
 10
0.0339639458766215
 20
-69.96893120918062
 30
0.0
 40
3.5
  1
2
  3
FARBE DIALOG-TEXT
  2
GENCOLTX
 70
     0
  7
GENPRESET
  0
ATTDEF
  8
0
  5
103
 10
0.0339639458766215
 20
-74.96893120918062
 30
0.0
 40
3.5
  1
c:\dos\edit
  3
TEXTEDITOR
  2
GENEDITOR
 70
     0
  7
GENPRESET
  0
ATTDEF
  8
0
  5
104
 10
0.0339639458766215
 20
-79.96893120918062
 30
0.0
 40
3.5
  1
M
  3
BEM INCH/METRISCH
  2
GENINCH
 70
     0
  7
GENPRESET
  0
ATTDEF
  8
0
  5
105
 10
0.0339639458766215
 20
-84.96893120918062
 30
0.0
 40
3.5
  1
ISO
  3
SYMBOLE/BEM ISO/ANSI
  2
GENDIMSTIL
 70
     0
  7
GENPRESET
  0
ENDBLK
  8
0
  5
106
  0
BLOCK
  8
0
  5
DD8
  2
ACAD
 70
     0
 10
0.0
 20
0.0
 30
0.0
  3
ACAD
  0
INSERT
  8
0
  5
EE0
 66
     1
  2
GENPRESE
 10
0.0
 20
0.0
 30
0.0
  0
ATTRIB
  8
0
  5
EE1
 10
0.0
 20
0.0
 30
0.0
 40
3.5
  1
A3
  2
GEN-KO2
 70
     0
  7
GENPRESET
  0
ATTRIB
  8
0
  5
EE2
 10
0.0
 20
-5.0
 30
0.0
 40
3.5
  1
item
  2
GEN-KO3
 70
     0
  7
GENPRESET
  0
ATTRIB
  8
0
  5
EE3
 10
0.0
 20
-10.0
 30
0.0
 40
3.5
  1
15
  2
GENSI
 70
     0
  7
GENPRESET
  0
ATTRIB
  8
0
  5
EE4
 10
0.0
 20
-15.0
 30
0.0
 40
3.5
  1

  2
GENSD
 70
     0
  7
GENPRESET
  0
ATTRIB
  8
0
  5
EE5
 10
0.0679278917532429
 20
-19.93786241836124
 30
0.0
 40
3.5
  1
0
  2
GENIF
 70
     0
  7
GENPRESET
  0
ATTRIB
  8
0
  5
EE6
 10
0.0339639458766215
 20
-24.96893120918062
 30
0.0
 40
3.5
  1
2
  2
GENPOSVAR
 70
     0
  7
GENPRESET
  0
ATTRIB
  8
0
  5
EE7
 10
0.0339639458766215
 20
-29.96893120918062
 30
0.0
 40
3.5
  1
0
  2
GENPOSBLK
 70
     0
  7
GENPRESET
  0
ATTRIB
  8
0
  5
EE8
 10
0.0339639458766215
 20
-34.96893120918062
 30
0.0
 40
3.5
  1
1
  2
GENPOSINC
 70
     0
  7
GENPRESET
  0
ATTRIB
  8
0
  5
EE9
 10
0.0339639458766215
 20
-39.96893120918062
 30
0.0
 40
3.5
  1
GEN-POS
  2
GENPARPOS
 70
     0
  7
GENPRESET
  0
ATTRIB
  8
0
  5
EEA
 10
0.0339639458766215
 20
-44.96893120918062
 30
0.0
 40
3.5
  1
GEN-SUM
  2
GENPARSUM
 70
     0
  7
GENPRESET
  0
ATTRIB
  8
0
  5
EEB
 10
0.0339639458766215
 20
-49.96893120918062
 30
0.0
 40
3.5
  1
CANONII
  2
GENPARDRU
 70
     0
  7
GENPRESET
  0
ATTRIB
  8
0
  5
EEC
 10
0.0339639458766215
 20
-54.96893120918062
 30
0.0
 40
3.5
  1

  2
GENSTDLG
 70
     0
  7
GENPRESET
  0
ATTRIB
  8
0
  5
EED
 10
0.0339639458766215
 20
-59.96893120918062
 30
0.0
 40
3.5
  1
13
  2
GENCOLBK
 70
     0
  7
GENPRESET
  0
ATTRIB
  8
0
  5
EEE
 10
0.0339639458766215
 20
-64.96893120918062
 30
0.0
 40
3.5
  1
4
  2
GENCOLTI
 70
     0
  7
GENPRESET
  0
ATTRIB
  8
0
  5
EEF
 10
0.0339639458766215
 20
-69.96893120918062
 30
0.0
 40
3.5
  1
2
  2
GENCOLTX
 70
     0
  7
GENPRESET
  0
ATTRIB
  8
0
  5
EF0
 10
0.0339639458766215
 20
-74.96893120918062
 30
0.0
 40
3.5
  1
c:\dos\edit
  2
GENEDITOR
 70
     0
  7
GENPRESET
  0
ATTRIB
  8
0
  5
EF1
 10
0.0339639458766215
 20
-79.96893120918062
 30
0.0
 40
3.5
  1
metric
  2
GENINCH
 70
     0
  7
GENPRESET
  0
ATTRIB
  8
0
  5
EF2
 10
0.0339639458766215
 20
-84.96893120918062
 30
0.0
 40
3.5
  1
ISO
  2
GENDIMSTIL
 70
     0
  7
GENPRESET
  0
SEQEND
  8
0
  5
EF3
  0
INSERT
  8
0
  5
1031
 66
     1
  2
AIT$MERK
 10
0.0
 20
0.0
 30
0.0
  0
ATTRIB
  8
AIT$HILFE
  5
1032
 10
0.8310912943111077
 20
-26.76290463692043
 30
0.0
 40
2.0
  1
genius11
  2
AIT$HAUTPMENUE
 70
     1
 41
0.8
  7
AIT$TSTIL
  0
ATTRIB
  8
AIT$HILFE
  5
1033
 10
0.8310912943111077
 20
-23.76290463692043
 30
0.0
 40
2.0
  1
1.0
  2
AIT$MASSTABSFAKTOR
 70
     1
 41
0.8
  7
AIT$TSTIL
  0
ATTRIB
  8
AIT$HILFE
  5
1034
 10
0.8310912943111077
 20
-20.76290463692043
 30
0.0
 40
2.0
  1
0
  2
AIT$LETZTE-POSITION
 70
     1
 41
0.8
  7
AIT$TSTIL
  0
ATTRIB
  8
AIT$HILFE
  5
1035
 10
0.8310912943111077
 20
-17.76290463692043
 30
0.0
 40
2.0
  1
0
  2
AIT$MERKER-4
 70
     1
 41
0.8
  7
AIT$TSTIL
  0
ATTRIB
  8
AIT$HILFE
  5
1036
 10
0.8310912943111077
 20
-14.76290463692043
 30
0.0
 40
2.0
  1
0
  2
AIT$MERKER-5
 70
     1
 41
0.8
  7
AIT$TSTIL
  0
ATTRIB
  8
AIT$HILFE
  5
1037
 10
0.8310912943111077
 20
-11.76290463692043
 30
0.0
 40
2.0
  1
1
  2
AIT$MERKER-6
 70
     1
 41
0.8
  7
AIT$TSTIL
  0
ATTRIB
  8
AIT$HILFE
  5
1038
 10
0.8310912943111077
 20
-8.762904636920433
 30
0.0
 40
2.0
  1
-
  2
AIT$MERKER-7
 70
     1
 41
0.8
  7
AIT$TSTIL
  0
ATTRIB
  8
AIT$HILFE
  5
1039
 10
0.8310912943111077
 20
-5.762904636920433
 30
0.0
 40
2.0
  1
-
  2
AIT$MERKER-8
 70
     1
 41
0.8
  7
AIT$TSTIL
  0
ATTRIB
  8
AIT$HILFE
  5
103A
 10
0.8310912943111077
 20
-2.762904636920433
 30
0.0
 40
2.0
  1
-
  2
AIT$MERKER-9
 70
     1
 41
0.8
  7
AIT$TSTIL
  0
SEQEND
  8
0
  5
103B
  0
ENDBLK
  8
0
  5
117E
  0
BLOCK
  8
0
  5
EF4
  2
AIT$MERK
 70
    66
 10
0.0
 20
0.0
 30
0.0
  3
AIT$MERK
  0
ATTDEF
  8
AIT$HILFE
  5
1026
 10
0.8310912943111077
 20
-26.76290463692043
 30
0.0
 40
2.0
  1

  3
HAUPTMENš
  2
AIT$HAUTPMENUE
 70
     1
 41
0.8
  7
AIT$TSTIL
  0
ATTDEF
  8
AIT$HILFE
  5
1027
 10
0.8310912943111077
 20
-23.76290463692043
 30
0.0
 40
2.0
  1

  3
MAáSTABFAKTOR
  2
AIT$MASSTABSFAKTOR
 70
     1
 41
0.8
  7
AIT$TSTIL
  0
ATTDEF
  8
AIT$HILFE
  5
1028
 10
0.8310912943111077
 20
-20.76290463692043
 30
0.0
 40
2.0
  1

  3
LETZTE POSITION
  2
AIT$LETZTE-POSITION
 70
     1
 41
0.8
  7
AIT$TSTIL
  0
ATTDEF
  8
AIT$HILFE
  5
1029
 10
0.8310912943111077
 20
-17.76290463692043
 30
0.0
 40
2.0
  1

  3
BEM. NACHKOMMA
  2
AIT$MERKER-4
 70
     1
 41
0.8
  7
AIT$TSTIL
  0
ATTDEF
  8
AIT$HILFE
  5
102A
 10
0.8310912943111077
 20
-14.76290463692043
 30
0.0
 40
2.0
  1

  3
POS. NEU SORT. 0/1
  2
AIT$MERKER-5
 70
     1
 41
0.8
  7
AIT$TSTIL
  0
ATTDEF
  8
AIT$HILFE
  5
102B
 10
0.8310912943111077
 20
-11.76290463692043
 30
0.0
 40
2.0
  1

  3
ML3-STšCKLISTE 0/1
  2
AIT$MERKER-6
 70
     1
 41
0.8
  7
AIT$TSTIL
  0
ATTDEF
  8
AIT$HILFE
  5
102C
 10
0.8310912943111077
 20
-8.762904636920433
 30
0.0
 40
2.0
  1

  3
MERKER-7
  2
AIT$MERKER-7
 70
     1
 41
0.8
  7
AIT$TSTIL
  0
ATTDEF
  8
AIT$HILFE
  5
102D
 10
0.8310912943111077
 20
-5.762904636920433
 30
0.0
 40
2.0
  1

  3
MERKER-8
  2
AIT$MERKER-8
 70
     1
 41
0.8
  7
AIT$TSTIL
  0
ATTDEF
  8
AIT$HILFE
  5
102E
 10
0.8310912943111077
 20
-2.762904636920433
 30
0.0
 40
2.0
  1

  3
MERKER-9
  2
AIT$MERKER-9
 70
     1
 41
0.8
  7
AIT$TSTIL
  0
ENDBLK
  8
0
  5
1030
  0
BLOCK
  8
0
  5
103C
  2
AIT$INFO
 70
     2
 10
0.0
 20
0.0
 30
0.0
  3
AIT$INFO
  0
ATTDEF
  8
AIT$INFO
  5
116E
 10
2.212871082438304
 20
-48.80310405500295
 30
0.0
 40
3.5
  1

  3
BEZEICHNUNG1
  2
AIT$_BEZ1
 70
     1
  7
AIT$TSTIL
  0
ATTDEF
  8
AIT$INFO
  5
116F
 10
2.212871082438304
 20
-42.96977072166961
 30
0.0
 40
3.5
  1

  3
BEZEICHNUNG2
  2
AIT$_BEZ2
 70
     1
  7
AIT$TSTIL
  0
ATTDEF
  8
AIT$INFO
  5
1170
 10
2.212871082438304
 20
-37.13643738833628
 30
0.0
 40
3.5
  1

  3
LIEFERANT1
  2
AIT$_LIE1
 70
     1
  7
AIT$TSTIL
  0
ATTDEF
  8
AIT$INFO
  5
1171
 10
2.212871082438304
 20
-31.30310405500294
 30
0.0
 40
3.5
  1

  3
LIEFERANT2
  2
AIT$_LIE2
 70
     1
  7
AIT$TSTIL
  0
ATTDEF
  8
AIT$INFO
  5
1172
 10
2.212871082438304
 20
-25.46977072166961
 30
0.0
 40
3.5
  1

  3
MATERIAL1
  2
AIT$_MAT1
 70
     1
  7
AIT$TSTIL
  0
ATTDEF
  8
AIT$INFO
  5
1173
 10
2.212871082438304
 20
-19.63643738833627
 30
0.0
 40
3.5
  1

  3
MATERIAL2
  2
AIT$_MAT2
 70
     1
  7
AIT$TSTIL
  0
ATTDEF
  8
AIT$INFO
  5
1174
 10
2.212871082438304
 20
-13.80310405500294
 30
0.0
 40
3.5
  1

  3
LŽNGE
  2
AIT$_LAE
 70
     1
  7
AIT$TSTIL
  0
ATTDEF
  8
AIT$INFO
  5
1175
 10
2.212871082438304
 20
-7.969770721669613
 30
0.0
 40
3.5
  1

  3
BREITE
  2
AIT$_BRE
 70
     1
  7
AIT$TSTIL
  0
ATTDEF
  8
AIT$INFO
  5
1176
 10
2.212871082438304
 20
-2.13643738833628
 30
0.0
 40
3.5
  1

  3
SYSTEM-NUMMER
  2
AIT$_NUM
 70
     1
  7
AIT$TSTIL
  0
LINE
  8
AIT$INFO
  5
1177
 10
-1.275056399474328
 20
0.7361541554684589
 30
0.0
 11
1.275056399474328
 21
-0.7361541554684589
 31
0.0
  0
LINE
  8
AIT$INFO
  5
1178
 10
-1.275056399474328
 20
-0.7361541554684584
 30
0.0
 11
1.275056399474328
 21
0.7361541554684584
 31
0.0
  0
LINE
  8
AIT$INFO
  5
1179
 10
0.0
 20
1.472308310936917
 30
0.0
 11
0.0
 21
-1.472308310936917
 31
0.0
  0
ENDBLK
  8
0
  5
117B
  0
ENDSEC
  0
SECTION
  2
ENTITIES
  0
INSERT
  8
0
  5
107
 66
     1
  2
GENPRESE
 10
0.0
 20
0.0
 30
0.0
  0
ATTRIB
  8
0
  5
108
 10
0.0
 20
0.0
 30
0.0
 40
3.5
  1
A3
  2
GEN-KO2
 70
     0
  7
GENPRESET
  0
ATTRIB
  8
0
  5
109
 10
0.0
 20
-5.0
 30
0.0
 40
3.5
  1
item
  2
GEN-KO3
 70
     0
  7
GENPRESET
  0
ATTRIB
  8
0
  5
10A
 10
0.0
 20
-10.0
 30
0.0
 40
3.5
  1
15
  2
GENSI
 70
     0
  7
GENPRESET
  0
ATTRIB
  8
0
  5
10B
 10
0.0
 20
-15.0
 30
0.0
 40
3.5
  1

  2
GENSD
 70
     0
  7
GENPRESET
  0
ATTRIB
  8
0
  5
10C
 10
0.0679278917532429
 20
-19.93786241836124
 30
0.0
 40
3.5
  1
0
  2
GENIF
 70
     0
  7
GENPRESET
  0
ATTRIB
  8
0
  5
10D
 10
0.0339639458766215
 20
-24.96893120918062
 30
0.0
 40
3.5
  1
2
  2
GENPOSVAR
 70
     0
  7
GENPRESET
  0
ATTRIB
  8
0
  5
10E
 10
0.0339639458766215
 20
-29.96893120918062
 30
0.0
 40
3.5
  1
0
  2
GENPOSBLK
 70
     0
  7
GENPRESET
  0
ATTRIB
  8
0
  5
10F
 10
0.0339639458766215
 20
-34.96893120918062
 30
0.0
 40
3.5
  1
1
  2
GENPOSINC
 70
     0
  7
GENPRESET
  0
ATTRIB
  8
0
  5
110
 10
0.0339639458766215
 20
-39.96893120918062
 30
0.0
 40
3.5
  1
GEN-POS
  2
GENPARPOS
 70
     0
  7
GENPRESET
  0
ATTRIB
  8
0
  5
111
 10
0.0339639458766215
 20
-44.96893120918062
 30
0.0
 40
3.5
  1
GEN-SUM
  2
GENPARSUM
 70
     0
  7
GENPRESET
  0
ATTRIB
  8
0
  5
112
 10
0.0339639458766215
 20
-49.96893120918062
 30
0.0
 40
3.5
  1
CANONII
  2
GENPARDRU
 70
     0
  7
GENPRESET
  0
ATTRIB
  8
0
  5
113
 10
0.0339639458766215
 20
-54.96893120918062
 30
0.0
 40
3.5
  1

  2
GENSTDLG
 70
     0
  7
GENPRESET
  0
ATTRIB
  8
0
  5
114
 10
0.0339639458766215
 20
-59.96893120918062
 30
0.0
 40
3.5
  1
13
  2
GENCOLBK
 70
     0
  7
GENPRESET
  0
ATTRIB
  8
0
  5
115
 10
0.0339639458766215
 20
-64.96893120918062
 30
0.0
 40
3.5
  1
4
  2
GENCOLTI
 70
     0
  7
GENPRESET
  0
ATTRIB
  8
0
  5
116
 10
0.0339639458766215
 20
-69.96893120918062
 30
0.0
 40
3.5
  1
2
  2
GENCOLTX
 70
     0
  7
GENPRESET
  0
ATTRIB
  8
0
  5
117
 10
0.0339639458766215
 20
-74.96893120918062
 30
0.0
 40
3.5
  1
c:\dos\edit
  2
GENEDITOR
 70
     0
  7
GENPRESET
  0
ATTRIB
  8
0
  5
118
 10
0.0339639458766215
 20
-79.96893120918062
 30
0.0
 40
3.5
  1
metric
  2
GENINCH
 70
     0
  7
GENPRESET
  0
ATTRIB
  8
0
  5
119
 10
0.0339639458766215
 20
-84.96893120918062
 30
0.0
 40
3.5
  1
ISO
  2
GENDIMSTIL
 70
     0
  7
GENPRESET
  0
SEQEND
  8
0
  5
11A
  0
VIEWPORT
  8
0
  5
3A3
 67
     1
 68
     1
 10
7.082164328657314
 20
6.0
 30
0.0
 40
14.16432865731462
 41
12.0
 69
     1
1001
ACAD
1000
MVIEW
1002
{
1070
    16
1010
0.0
1020
0.0
1030
0.0
1010
0.0
1020
0.0
1030
1.0
1040
0.0
1040
12.0
1040
7.082164328657314
1040
6.0
1040
50.0
1040
0.0
1040
0.0
1070
     0
1070
   100
1070
     1
1070
     1
1070
     0
1070
     0
1070
     0
1070
     0
1040
0.0
1040
0.0
1040
0.0
1040
7.0
1040
7.0
1040
10.0
1040
10.0
1070
     0
1002
{
1002
}
1002
}
  0
CIRCLE
  8
ITEM_50
  5
8E8
 10
282.9943126378183
 20
181.7703448003233
 30
0.0
 40
2.458499999999999
  0
LINE
  8
ITEM_50
  5
907
 10
291.9943126378183
 20
165.270344800322
 30
0.0
 11
273.9943126378183
 21
165.270344800322
 31
0.0
  0
ARC
  8
ITEM_25
  5
922
 10
282.9943126378183
 20
235.2904446022378
 30
0.0
 40
2.999999999999983
 50
247.4999999999995
 51
157.4999999999999
  0
CIRCLE
  8
ITEM_50
  5
923
 10
282.9943126378183
 20
235.2904446022379
 30
0.0
 40
2.458499999999999
  0
LINE
  8
ITEM_50
  5
947
 10
291.9943126378183
 20
210.5720223952495
 30
0.0
 11
291.9943126378182
 21
208.795494110338
 31
0.0
  0
LINE
  8
ITEM_50
  5
948
 10
274.1608115136089
 20
208.4229662588275
 30
0.0
 11
279.1019235357821
 21
203.999494543739
 31
0.0
  0
LINE
  8
ITEM_50
  5
94B
 10
273.9943126378183
 20
210.5720223952496
 30
0.0
 11
273.9943126378183
 21
208.795494110338
 31
0.0
  0
LINE
  8
ITEM_50
  5
94C
 10
279.4354246599916
 20
203.8720223952495
 30
0.0
 11
286.553200615645
 21
203.8720223952495
 31
0.0
  0
LINE
  8
ITEM_50
  5
94D
 10
274.4943126378183
 20
211.0720223952495
 30
0.0
 11
291.4943126378183
 21
211.0720223952495
 31
0.0
  0
LINE
  8
ITEM_50
  5
94E
 10
273.9943126378183
 20
251.7904446022392
 30
0.0
 11
291.9943126378183
 21
251.7904446022392
 31
0.0
  0
LINE
  8
ITEM_50
  5
94F
 10
273.9943126378183
 20
228.7904446022392
 30
0.0
 11
273.9943126378183
 21
251.7904446022392
 31
0.0
  0
LINE
  8
ITEM_50
  5
950
 10
291.9943126378183
 20
228.7904446022392
 30
0.0
 11
291.9943126378183
 21
251.7904446022392
 31
0.0
  0
ARC
  8
ITEM_50
  5
951
 10
279.4354246599916
 20
204.3720223952495
 30
0.0
 40
0.5
 50
228.1638836188807
 51
269.9999999999995
  0
ARC
  8
ITEM_50
  5
952
 10
286.553200615645
 20
204.3720223952495
 30
0.0
 40
0.5
 50
269.9999999999996
 51
311.8361163811193
  0
ARC
  8
ITEM_50
  5
953
 10
274.4943126378183
 20
208.795494110338
 30
0.0
 40
0.5
 50
180.0000000000006
 51
228.1638836188805
  0
ARC
  8
ITEM_50
  5
954
 10
291.4943126378182
 20
208.795494110338
 30
0.0
 40
0.5
 50
311.8361163811196
 51
359.9999999999993
  0
ARC
  8
ITEM_50
  5
955
 10
274.4943126378183
 20
210.5720223952496
 30
0.0
 40
0.5
 50
89.9999999999998
 51
180.0000000000003
  0
ARC
  8
ITEM_50
  5
956
 10
291.4943126378183
 20
210.5720223952495
 30
0.0
 40
0.5
 50
359.9999999999992
 51
90.0
  0
LINE
  8
ITEM_50
  5
958
 10
279.4354246599894
 20
251.7904446022392
 30
0.0
 11
279.4354246599894
 21
228.7904446022392
 31
0.0
  0
LINE
  8
ITEM_50
  5
959
 10
286.5532006156428
 20
251.7904446022392
 30
0.0
 11
286.5532006156428
 21
228.7904446022392
 31
0.0
  0
LINE
  8
ITEM_50
  5
970
 10
273.9943126378183
 20
228.7904446022392
 30
0.0
 11
291.9943126378183
 21
228.7904446022392
 31
0.0
  0
LINE
  8
ITEM_50
  5
972
 10
324.9256441780019
 20
203.8720223952496
 30
0.0
 11
301.9256441780019
 21
203.8720223952496
 31
0.0
  0
LINE
  8
ITEM_50
  5
973
 10
301.9256441780019
 20
203.8720223952496
 30
0.0
 11
301.9256441780019
 21
211.0720223952495
 31
0.0
  0
LINE
  8
ITEM_50
  5
974
 10
301.9256441780019
 20
211.0720223952495
 30
0.0
 11
324.9256441780019
 21
211.0720223952495
 31
0.0
  0
LINE
  8
ITEM_50
  5
975
 10
324.9256441780019
 20
211.0720223952495
 30
0.0
 11
324.9256441780019
 21
203.8720223952496
 31
0.0
  0
CIRCLE
  8
ITEM_50
  5
976
 10
282.9943126378183
 20
245.2904446022379
 30
0.0
 40
2.049999999999999
  0
LINE
  8
ITEM_50
  5
97B
 10
291.8278137620276
 20
208.4229662588275
 30
0.0
 11
286.8867017398544
 21
203.999494543739
 31
0.0
  0
LINE
  8
ITEM_50
  5
9F0
 10
291.9943126378183
 20
188.270344800322
 30
0.0
 11
273.9943126378183
 21
188.270344800322
 31
0.0
  0
LINE
  8
ITEM_50
  5
9F3
 10
273.9943126378182
 20
188.270344800322
 30
0.0
 11
273.9943126378183
 21
165.270344800322
 31
0.0
  0
LINE
  8
ITEM_50
  5
9F4
 10
291.9943126378183
 20
188.270344800322
 30
0.0
 11
291.9943126378183
 21
165.270344800322
 31
0.0
  0
LINE
  8
ITEM_50
  5
9F5
 10
301.9256441780019
 20
208.5720223952495
 30
0.0
 11
324.9256441780019
 21
208.5720223952495
 31
0.0
  0
ARC
  8
ITEM_50
  5
A0C
 10
318.4187152590295
 20
204.8722100460966
 30
0.0
 40
2.0
 50
210.0062076342153
 51
329.9937923657846
  0
ARC
  8
ITEM_25
  5
A0D
 10
282.9943126378183
 20
181.7703448003231
 30
0.0
 40
2.999999999999983
 50
247.4999999999995
 51
157.4999999999999
  0
ARC
  8
ITEM_50
  5
A0E
 10
282.987383718846
 20
204.8722100460965
 30
0.0
 40
2.0
 50
210.0062076342153
 51
329.9937923657846
  0
POINT
  8
ITEM_HILFE
  5
A0F
 10
308.4256441780019
 20
211.0720223952495
 30
0.0
  0
POINT
  8
ITEM_HILFE
  5
A10
 10
282.9943126378183
 20
211.0720223952495
 30
0.0
  0
INSERT
  8
0
  5
1194
 66
     1
  2
AIT$MERK
 10
0.0
 20
0.0
 30
0.0
  0
ATTRIB
  8
AIT$HILFE
  5
1195
 10
0.8310912943111077
 20
-26.76290463692043
 30
0.0
 40
2.0
  1
genius11
  2
AIT$HAUTPMENUE
 70
     1
 41
0.8
  7
AIT$TSTIL
  0
ATTRIB
  8
AIT$HILFE
  5
1196
 10
0.8310912943111077
 20
-23.76290463692043
 30
0.0
 40
2.0
  1
1.0
  2
AIT$MASSTABSFAKTOR
 70
     1
 41
0.8
  7
AIT$TSTIL
  0
ATTRIB
  8
AIT$HILFE
  5
1197
 10
0.8310912943111077
 20
-20.76290463692043
 30
0.0
 40
2.0
  1
0
  2
AIT$LETZTE-POSITION
 70
     1
 41
0.8
  7
AIT$TSTIL
  0
ATTRIB
  8
AIT$HILFE
  5
1198
 10
0.8310912943111077
 20
-17.76290463692043
 30
0.0
 40
2.0
  1
0
  2
AIT$MERKER-4
 70
     1
 41
0.8
  7
AIT$TSTIL
  0
ATTRIB
  8
AIT$HILFE
  5
1199
 10
0.8310912943111077
 20
-14.76290463692043
 30
0.0
 40
2.0
  1
0
  2
AIT$MERKER-5
 70
     1
 41
0.8
  7
AIT$TSTIL
  0
ATTRIB
  8
AIT$HILFE
  5
119A
 10
0.8310912943111077
 20
-11.76290463692043
 30
0.0
 40
2.0
  1
1
  2
AIT$MERKER-6
 70
     1
 41
0.8
  7
AIT$TSTIL
  0
ATTRIB
  8
AIT$HILFE
  5
119B
 10
0.8310912943111077
 20
-8.762904636920433
 30
0.0
 40
2.0
  1
-
  2
AIT$MERKER-7
 70
     1
 41
0.8
  7
AIT$TSTIL
  0
ATTRIB
  8
AIT$HILFE
  5
119C
 10
0.8310912943111077
 20
-5.762904636920433
 30
0.0
 40
2.0
  1
-
  2
AIT$MERKER-8
 70
     1
 41
0.8
  7
AIT$TSTIL
  0
ATTRIB
  8
AIT$HILFE
  5
119D
 10
0.8310912943111077
 20
-2.762904636920433
 30
0.0
 40
2.0
  1
-
  2
AIT$MERKER-9
 70
     1
 41
0.8
  7
AIT$TSTIL
  0
SEQEND
  8
0
  5
119E
  0
ENDSEC
  0
EOF
